Logo Webboard ของ blessingheal
ติดต่อโฆษณา  |  สมัครใช้งานสุดยอดแห่ง Free Webboard ได้แล้ววันนี้ คลิ๊ก !!  | แจ้งบอร์ดไม่เหมาะสม


  จิปาถะ

  

  Topic : นางฟ้าคนเดิม คอร์ด แท็บ พร้อมตามคำเรียกร้อง

Delete
Admin ลบกระทู้
   Page [1]
  สมาชิกพิเศษ
Gamst-Pedersen
คลิ๊กเพื่อดูภาพขนาดจริง
  
gt_golf_baros@hotmail.com 203.113.67.135

  โพสต์เมื่อ : 25 เม.ย. 2549 01:14 น.

ทาง Gm

Intro

1+--6-----6-----6-----6h7p6---------6---6-----6------------4--4------4----------

2+------7-----7-----7---------7--9--9-------9--9--9--6--7--7----7--7--7--6--7-

3+----6-----6-----6-----------------6----6-----6-------------6---6---6--------------



1+------4--4----6--4--------------4-----------

2+----7-----7--------7--6--7---7---7------6--

3+--4----4---4---------------4--------4>6---
Intro :Gb/Db/B/Bm Db/Gb



      Gb                Db                      B                              Db                                            

ดอกไม้  ถึงมีกลิ่นหอมเพียงใด  ไม่ช้าก็ร่วงโรย  เห..ยวเฉาไม่เหลือกลิ่นเอาไว้ 

       Gb       Fm             Bbm            Bbm           B                  Db

           ผิดกับรักเธอ  ไม่เคยเฉา  กลิ่นยังหอมยวลใจ  สัมผัสรักเธอ  อิ่มเอมใจ

      Gb                Db B              Db

วันนี้  ก็เหมือนวันที่ฉันเจอเธอ  รอยยิ้มเมื่อแรกเจอ  ความรักเธอไม่ต่างจากวันนั้น

            Gb       Fm             Bbm            Bbm           B                  Db

       เธออยู่ข้างกาย  ร่วมความเหงา  ร่วมสุขทุกคืนวัน  ตัวฉันโชคดี  ได้มีเธอ

        B                    Gb                                   B                       

   * ขอบคุณที่รักและห่วง  ห่วงใยอยู่เสมอ         อาจทำให้เธอเหน็ดเหนื่อย

                 Bm                  Bm

       แต่เธอไม่เคยจากฉันไป

                                     Gb           Db              B             Bm/Db

   ** มีแต่เธอนั้น  ไม่จากไปไหน  ถึงฟ้าจะไม่สดใส  เธอนั้นก็ยังอยู่

                    Gb                  Db                          B             Bm/Db     

        อยู่ปลอบใจฉัน  ไม่ให้ท้อใจ  ข้ามพ้นเรื่องที่เลวร้าย  นางฟ้าคนเดิมของฉัน

Solo : Gb/Db/B/Bm Db/Gb



         Gb                             Db                                B                              Db

อย่างฉัน  ก็เหมือนคนไม่เหลืออะไร  ไม่พร้อมเท่ากับใคร  สุดท้ายเธอเลือกอยู่กับฉัน

             Gb       Fm             Bbm            Bbm           B                  Db

        แต่สิ่งสำคัญ   นั่นคือรัก  เธอให้ฉันมานาน  ไม่คิดต้องการสิ่งใดๆ              ซ้ำ ( *,** )

                   Abm         Gb                     Abm   Bbm B                  

          ไม่มีสิ่งใดสำคัญ  เท่ากับเธอ    หากปราศจากรักเธอ  จะอยู่อย่างไร

Solo : Gb/Db/B/Bm Db/Gb ซ้ำ (**)

Outro : Gb/Db/B/Bm Db/Gb

Solo         


1------0p8--------0p6-------0p5------0p4-------------

2----0p9--------0p7-------0p6-------0p5-------0p2-----
3--7------------5-----------4------------3----------1----

4---------------------------------------------------------0p3

เล่นไป3รอบ ตีคอร์ดขึ้นลงไปเลื่อยๆ ท่อนกลางวันหลัง


.................................................

solo อีกแบบ  เลือกเอาอันไหนเหมือนกว่า

หากปราศจากรักเธอ     จะอยู่อย่างไร solo :

1] -7-8-7-0-5-7-5-0-3-5-3-0-2-3-2---------------7-8-7-0-5-7-5-0-3-5-3-0-2-3-2-----------

2] -----------------------------------------5-3--3-----------------------------------------------5-3--3---

3] ----------------------------------------------5--5-4-----------------------------------------------5-5-4


1] -7-8-7-0-5-7-5-0-3-5-3-0-2-3-2----------------------------------------------5--5------5--7---8

2] -----------------------------------------5-3---3-------------5---5-6-7--7-5-7-8------8-7-8--------

3] ----------------------------------------------5---5-4--5s7---7-----------------------------------------

 

หาoutro ไม่เจอว่ะ  โทษที ไว้เจอจะหามาให้อีกทีนะ



   Admin ลบความคิดเห็นนี้ 
 


  25 เม.ย. 2549 01:18 น. Admin ลบความคิดเห็นนี้ 
  สมาชิกพิเศษ
Gamst-Pedersen
คลิ๊กเพื่อดูภาพขนาดจริง
  
gt_golf_baros@hotmail.com 203.113.67.135

  

   G                                                                   D

1|---------------------------------------------------------------------2----------------2-H-3-------

2|----------------0-----------------0-H-1-P-0-----------------3-----3----------3----------3----

3|-------------0-----0----------0-----------------0----------2-----------2-----2------------------

4|----------0----------0------0---------------------------0------------------0----------------------

5|------------------------------------------------------------------------------------------------------

6|------3------------------3--------------------------------------------------------------------------



            Em                                            C                             D

1|-------------------------0---------------------------------------------------2--------------------

2|--------------0---------------------0--------------- 1-------------------3----2-----------------

3|-----------0---------0----------0----------------0----0-------------2----------3--------------

4|-------2----------2---------2-----------------2--------- 2-------0-----------------------------

5|----2---------------------------------------3-----------------------------------------------------

6|---------------------------------------------------------------------------------------------------



             G                                      G

1|------------------------------------- 3---------------

2|--------------------0--------------- 3---------------

3|-----------------0----0------------ 0---------------       

4|--------------0-----------0-------  0---------------        

5|------------------------------------ 2---------------

6|---------3------------------------- 3----------------

อันนี้คือ intro อีกอัน  เล่นทาง G

แต่มันบอกให้ตั้งสายกีต้าร์ต่ำครึ่งเสียง  ก็เหมือนGm อ่ะแหละเรา  คล้ายๆ

เล่นGm ดีกว่านะ เรานะนำ อันนี้เอามาแค่ให้เลือกดู

 


  25 เม.ย. 2549 10:49 น. Admin ลบความคิดเห็นนี้ 
  ผู้ชมทั่วไป animater

  58.147.59.167

   ขอบคุณมากๆเพื่อนกอล์ฟ  น้องเรามันเล่นอยู่ก็เลยสงเคราะห์มันหน่อย  แต่เราก็อยากเล่นนะเพลงนี้อ่ะ แต่โน้ตมันยังไม่ออกก็เลยไม่รู้ว่าจะไปซื้อที่ไหนได้

 


  27 เม.ย. 2549 05:14 น. Admin ลบความคิดเห็นนี้ 
  สมาชิกพิเศษ
Gamst-Pedersen
คลิ๊กเพื่อดูภาพขนาดจริง
  
gt_golf_baros@hotmail.com 203.113.16.250:203.113.67.134

  

  

*** ชอบรูปนี้ว่ะ  ฮาดี เด็กกะแมว 555555555+

 

 


page [1]

ร่วมแสดงความคิดเห็น (กรุณาใช้คำพูดที่สุภาพ)
  โพสต์โดย
  Email
  Post ภาพ
* สมาชิกเท่านั้น
ขนาดของไฟล์ภาพไม่เกิน 100 kb. เฉพาะไฟล์ jpg, gif หรือ swf เท่านั้น
  Security code:
 กรุณากรอกรหัสที่เห็นเพื่อยืนยันการโพสต์


บริการฟรีเว็บบอร์ดจาก YimWhan.com :: copyrights © 2009-2010